Sezen Aksu - Masum Değiliz Gitar Tabı

E|----------0-1-1----1----0-1-0------------------|
B|----1--3--------3----3--------3-1---0-1--------|
G|-----------------------------------------------|
D|-----------------------------------------------|
A|-----------------------------------------------|
E|-----------------------------------------------|

E|----------0-1-3-1-0-------1---0-1-0------------|
B|----1--3------------3---3---3-------3-1---0-1--|
G|-----------------------------------------------|
D|-----------------------------------------------|
A|-----------------------------------------------|
E|-----------------------------------------------|

E|--0----------------------0----------------------|
B|-1-1-3-0--1-3-0-1-0-1--1--1-3-0--1--3-0-1---0-1-|
G|------------------------------------------------|
D|------------------------------------------------|
A|------------------------------------------------|
E|------------------------------------------------|

1 yorum:

  1. ne zamandır aradığım bir tab teşekkürler

    YanıtlaSil